 PTC IGES file: s0263-63681.igs                                         S      1
1H,,1H;,5H63681,15Hs0263-63681.igs,                                     G      1
49HPro/ENGINEER by Parametric Technology Corporation,7H2006200,32,38,7, G      2
38,15,5H63681,1.,2,2HMM,32768,0.5,15H20070622.123743,0.599993,6000.17,  G      3
17HAndrea.Castagnoli,7HUnknown,10,0,15H20070622.123743;                 G      4
     314       1       1       1       0       0       0       001000200D      1
     314       0       4       1       0                   COLOR       1D      2
     314       2       1       1       0       0       0       001000200D      3
     314       0       1       1       0                   COLOR       2D      4
     314       3       1       1       0       0       0       001000200D      5
     314       0       1       1       0                   COLOR       3D      6
     314       4       1       1       0       0       0       001000200D      7
     314       0       1       1       0                   COLOR       4D      8
     314       5       1       1       0       0       0       001000200D      9
     314       0       8       1       0                   COLOR       5D     10
     314       6       1       1       0       0       0       001000200D     11
     314       0       8       1       0                   COLOR       6D     12
     314       7       1       1       0       0       0       001000200D     13
     314       0       5       1       0                   COLOR       7D     14
     314       8       1       1       0       0       0       001000200D     15
     314       0       8       1       0                   COLOR       8D     16
     110       9       1       1       0       0       0       001010000D     17
     110       0       0       1       0                    LINE       1D     18
     110      10       1       1       0       0       0       001010000D     19
     110       0       0       1       0                    LINE       2D     20
     110      11       1       1       0       0       0       001010000D     21
     110       0       0       1       0                    LINE       3D     22
     110      12       1       1       0       0       0       001010000D     23
     110       0       0       1       0                    LINE       4D     24
     110      13       1       1       0       0       0       001010000D     25
     110       0       0       1       0                    LINE       5D     26
     110      14       1       1       0       0       0       001010000D     27
     110       0       0       1       0                    LINE       6D     28
     110      15       1       1       0       0       0       001010000D     29
     110       0       0       1       0                    LINE       7D     30
     110      16       1       1       0       0       0       001010000D     31
     110       0       0       1       0                    LINE       8D     32
     110      17       1       1       0       0       0       001010000D     33
     110       0       0       1       0                    LINE       9D     34
     110      18       1       1       0       0       0       001010000D     35
     110       0       0       1       0                    LINE      10D     36
     110      19       1       1       0       0       0       001010000D     37
     110       0       0       1       0                    LINE      11D     38
     110      20       1       1       0       0       0       001010000D     39
     110       0       0       1       0                    LINE      12D     40
     110      21       1       1       0       0       0       001010000D     41
     110       0       0       1       0                    LINE      13D     42
     110      22       1       1       0       0       0       001010000D     43
     110       0       0       1       0                    LINE      14D     44
     110      23       1       1       0       0       0       001010000D     45
     110       0       0       1       0                    LINE      15D     46
     110      24       1       1       0       0       0       001010000D     47
     110       0       0       1       0                    LINE      16D     48
     110      25       1       1       0       0       0       001010000D     49
     110       0       0       1       0                    LINE      17D     50
     110      26       1       1       0       0       0       001010000D     51
     110       0       0       1       0                    LINE      18D     52
     110      27       1       1       0       0       0       001010000D     53
     110       0       0       1       0                    LINE      19D     54
     110      28       1       1       0       0       0       001010000D     55
     110       0       0       1       0                    LINE      20D     56
     110      29       1       1       0       0       0       001010000D     57
     110       0       0       1       0                    LINE      21D     58
     110      30       1       1       0       0       0       001010000D     59
     110       0       0       1       0                    LINE      22D     60
     110      31       1       1       0       0       0       001010000D     61
     110       0       0       1       0                    LINE      23D     62
     110      32       1       1       0       0       0       001010000D     63
     110       0       0       1       0                    LINE      24D     64
     110      33       1       1       0       0       0       001010000D     65
     110       0       0       1       0                    LINE      25D     66
     110      34       1       1       0       0       0       001010000D     67
     110       0       0       1       0                    LINE      26D     68
     110      35       1       1       0       0       0       001010000D     69
     110       0       0       1       0                    LINE      27D     70
     110      36       1       1       0       0       0       001010000D     71
     110       0       0       1       0                    LINE      28D     72
     110      37       1       1       0       0       0       001010000D     73
     110       0       0       1       0                    LINE      29D     74
     110      38       1       1       0       0       0       001010000D     75
     110       0       0       1       0                    LINE      30D     76
     110      39       1       1       0       0       0       001010000D     77
     110       0       0       1       0                    LINE      31D     78
     110      40       1       1       0       0       0       001010000D     79
     110       0       0       1       0                    LINE      32D     80
     110      41       1       1       0       0       0       001010000D     81
     110       0       0       1       0                    LINE      33D     82
     110      42       1       1       0       0       0       001010000D     83
     110       0       0       1       0                    LINE      34D     84
     110      43       1       1       0       0       0       001010000D     85
     110       0       0       1       0                    LINE      35D     86
     110      44       1       1       0       0       0       001010000D     87
     110       0       0       1       0                    LINE      36D     88
     502      45       1       1       0       0       0       001010000D     89
     502       0       0       7       1                  VERTEX       1D     90
     504      52       1       1       0       0       0       000010001D     91
     504       0       0       9       1                    EDGE       1D     92
     128      61       1       1       0       0       0       001010000D     93
     128       0       0       7       0                  SPLSRF       1D     94
     508      68       1       1       0       0       0       001010000D     95
     508       0       0       3       1                EDGELOOP       1D     96
     510      71       1       1       0       0       0       000010000D     97
     510       0       0       1       1                    FACE       1D     98
     128      72       1       1       0       0       0       001010000D     99
     128       0       0       4       0                  SPLSRF       2D    100
     508      76       1       1       0       0       0       001010000D    101
     508       0       0       1       1                EDGELOOP       2D    102
     510      77       1       1       0       0       0       000010000D    103
     510       0       0       1       1                    FACE       2D    104
     128      78       1       1       0       0       0       001010000D    105
     128       0       0       4       0                  SPLSRF       3D    106
     508      82       1       1       0       0       0       001010000D    107
     508       0       0       1       1                EDGELOOP       3D    108
     510      83       1       1       0       0       0       000010000D    109
     510       0       0       1       1                    FACE       3D    110
     128      84       1       1       0       0       0       001010000D    111
     128       0       0       6       0                  SPLSRF       4D    112
     508      90       1       1       0       0       0       001010000D    113
     508       0       0       1       1                EDGELOOP       4D    114
     510      91       1       1       0       0       0       000010000D    115
     510       0       0       1       1                    FACE       4D    116
     128      92       1       1       0       0       0       001010000D    117
     128       0       0       4       0                  SPLSRF       5D    118
     508      96       1       1       0       0       0       001010000D    119
     508       0       0       1       1                EDGELOOP       5D    120
     510      97       1       1       0       0       0       000010000D    121
     510       0       0       1       1                    FACE       5D    122
     128      98       1       1       0       0       0       001010000D    123
     128       0       0       4       0                  SPLSRF       6D    124
     508     102       1       1       0       0       0       001010000D    125
     508       0       0       1       1                EDGELOOP       6D    126
     510     103       1       1       0       0       0       000010000D    127
     510       0       0       1       1                    FACE       6D    128
     128     104       1       1       0       0       0       001010000D    129
     128       0       0       4       0                  SPLSRF       7D    130
     508     108       1       1       0       0       0       001010000D    131
     508       0       0       1       1                EDGELOOP       7D    132
     510     109       1       1       0       0       0       000010000D    133
     510       0       0       1       1                    FACE       7D    134
     128     110       1       1       0       0       0       001010000D    135
     128       0       0       6       0                  SPLSRF       8D    136
     508     116       1       1       0       0       0       001010000D    137
     508       0       0       1       1                EDGELOOP       8D    138
     510     117       1       1       0       0       0       000010000D    139
     510       0       0       1       1                    FACE       8D    140
     128     118       1       1       0       0       0       001010000D    141
     128       0       0       4       0                  SPLSRF       9D    142
     508     122       1       1       0       0       0       001010000D    143
     508       0       0       1       1                EDGELOOP       9D    144
     510     123       1       1       0       0       0       000010000D    145
     510       0       0       1       1                    FACE       9D    146
     128     124       1       1       0       0       0       001010000D    147
     128       0       0       4       0                  SPLSRF      10D    148
     508     128       1       1       0       0       0       001010000D    149
     508       0       0       1       1                EDGELOOP      10D    150
     510     129       1       1       0       0       0       000010000D    151
     510       0       0       1       1                    FACE      10D    152
     128     130       1       1       0       0       0       001010000D    153
     128       0       0       4       0                  SPLSRF      11D    154
     508     134       1       1       0       0       0       001010000D    155
     508       0       0       1       1                EDGELOOP      11D    156
     510     135       1       1       0       0       0       000010000D    157
     510       0       0       1       1                    FACE      11D    158
     128     136       1       1       0       0       0       001010000D    159
     128       0       0       6       0                  SPLSRF      12D    160
     508     142       1       1       0       0       0       001010000D    161
     508       0       0       1       1                EDGELOOP      12D    162
     510     143       1       1       0       0       0       000010000D    163
     510       0       0       1       1                    FACE      12D    164
     128     144       1       1       0       0       0       001010000D    165
     128       0       0       4       0                  SPLSRF      13D    166
     508     148       1       1       0       0       0       001010000D    167
     508       0       0       1       1                EDGELOOP      13D    168
     510     149       1       1       0       0       0       000010000D    169
     510       0       0       1       1                    FACE      13D    170
     128     150       1       1       0       0       0       001010000D    171
     128       0       0       7       0                  SPLSRF      14D    172
     508     157       1       1       0       0       0       001010000D    173
     508       0       0       3       1                EDGELOOP      14D    174
     510     160       1       1       0       0       0       000010000D    175
     510       0       0       1       1                    FACE      14D    176
     514     161       1       1       0       0       0       000010000D    177
     514       0       0       2       1                   SHELL       1D    178
     186     163       1       1       0       0       0       000000000D    179
     186       0       0       1       0                    MSBR       1D    180
314,1.1D0,1.2D0,1D2;                                                   1P      1
314,1.1D1,1.1D1,1.1D1;                                                 3P      2
314,3.92D1,1.2D0,1.2D0;                                                5P      3
314,4.1D1,0D0,2.2D1;                                                   7P      4
314,8.784D1,9.49D1,1D2;                                                9P      5
314,9.6D1,9.6D1,9.6D1;                                                11P      6
314,9.8D1,6.27D1,0D0;                                                 13P      7
314,1D2,1D2,9.49D1;                                                   15P      8
110,-5D0,-3D3,-2.15D1,-5D0,-3D3,-1.55D1;                              17P      9
110,-5D0,-3D3,-1.55D1,0D0,-3D3,-1.55D1;                               19P     10
110,0D0,-3D3,-1.55D1,0D0,-3D3,1.55D1;                                 21P     11
110,0D0,-3D3,1.55D1,-5D0,-3D3,1.55D1;                                 23P     12
110,-5D0,-3D3,1.55D1,-5D0,-3D3,2.15D1;                                25P     13
110,-5D0,-3D3,2.15D1,4D0,-3D3,2.15D1;                                 27P     14
110,4D0,-3D3,2.15D1,4D0,-3D3,1.5D0;                                   29P     15
110,4D0,-3D3,1.5D0,7D0,-3D3,1.5D0;                                    31P     16
110,7D0,-3D3,1.5D0,7D0,-3D3,-1.5D0;                                   33P     17
110,7D0,-3D3,-1.5D0,4D0,-3D3,-1.5D0;                                  35P     18
110,4D0,-3D3,-1.5D0,4D0,-3D3,-2.15D1;                                 37P     19
110,4D0,-3D3,-2.15D1,-5D0,-3D3,-2.15D1;                               39P     20
110,-5D0,-3D3,-2.15D1,-5D0,3D3,-2.15D1;                               41P     21
110,4D0,-3D3,-2.15D1,4D0,3D3,-2.15D1;                                 43P     22
110,4D0,-3D3,-1.5D0,4D0,3D3,-1.5D0;                                   45P     23
110,7D0,-3D3,-1.5D0,7D0,3D3,-1.5D0;                                   47P     24
110,7D0,-3D3,1.5D0,7D0,3D3,1.5D0;                                     49P     25
110,4D0,-3D3,1.5D0,4D0,3D3,1.5D0;                                     51P     26
110,4D0,-3D3,2.15D1,4D0,3D3,2.15D1;                                   53P     27
110,-5D0,-3D3,2.15D1,-5D0,3D3,2.15D1;                                 55P     28
110,-5D0,-3D3,1.55D1,-5D0,3D3,1.55D1;                                 57P     29
110,0D0,-3D3,1.55D1,0D0,3D3,1.55D1;                                   59P     30
110,0D0,-3D3,-1.55D1,0D0,3D3,-1.55D1;                                 61P     31
110,-5D0,-3D3,-1.55D1,-5D0,3D3,-1.55D1;                               63P     32
110,-5D0,3D3,-2.15D1,-5D0,3D3,-1.55D1;                                65P     33
110,4D0,3D3,-2.15D1,-5D0,3D3,-2.15D1;                                 67P     34
110,4D0,3D3,-1.5D0,4D0,3D3,-2.15D1;                                   69P     35
110,7D0,3D3,-1.5D0,4D0,3D3,-1.5D0;                                    71P     36
110,7D0,3D3,1.5D0,7D0,3D3,-1.5D0;                                     73P     37
110,4D0,3D3,1.5D0,7D0,3D3,1.5D0;                                      75P     38
110,4D0,3D3,2.15D1,4D0,3D3,1.5D0;                                     77P     39
110,-5D0,3D3,2.15D1,4D0,3D3,2.15D1;                                   79P     40
110,-5D0,3D3,1.55D1,-5D0,3D3,2.15D1;                                  81P     41
110,0D0,3D3,1.55D1,-5D0,3D3,1.55D1;                                   83P     42
110,0D0,3D3,-1.55D1,0D0,3D3,1.55D1;                                   85P     43
110,-5D0,3D3,-1.55D1,0D0,3D3,-1.55D1;                                 87P     44
502,24,-5D0,-3D3,2.15D1,4D0,-3D3,2.15D1,4D0,-3D3,-2.15D1,-5D0,        89P     45
-3D3,-2.15D1,-5D0,3D3,2.15D1,4D0,3D3,2.15D1,4D0,3D3,-2.15D1,          89P     46
-5D0,3D3,-2.15D1,-5D0,-3D3,-1.55D1,0D0,-3D3,-1.55D1,0D0,-3D3,         89P     47
1.55D1,-5D0,-3D3,1.55D1,4D0,-3D3,1.5D0,7D0,-3D3,1.5D0,7D0,-3D3,       89P     48
-1.5D0,4D0,-3D3,-1.5D0,-5D0,3D3,-1.55D1,0D0,3D3,-1.55D1,0D0,3D3,      89P     49
1.55D1,-5D0,3D3,1.55D1,4D0,3D3,1.5D0,7D0,3D3,1.5D0,7D0,3D3,           89P     50
-1.5D0,4D0,3D3,-1.5D0;                                                89P     51
504,36,27,89,1,89,2,39,89,3,89,4,79,89,5,89,6,67,89,7,89,8,17,        91P     52
89,4,89,9,19,89,9,89,10,21,89,10,89,11,23,89,11,89,12,25,89,12,       91P     53
89,1,29,89,2,89,13,31,89,13,89,14,33,89,14,89,15,35,89,15,89,16,      91P     54
37,89,16,89,3,65,89,8,89,17,87,89,17,89,18,85,89,18,89,19,83,89,      91P     55
19,89,20,81,89,20,89,5,77,89,6,89,21,75,89,21,89,22,73,89,22,89,      91P     56
23,71,89,23,89,24,69,89,24,89,7,41,89,4,89,8,63,89,9,89,17,61,        91P     57
89,10,89,18,59,89,11,89,19,57,89,12,89,20,55,89,1,89,5,53,89,2,       91P     58
89,6,51,89,13,89,21,49,89,14,89,22,47,89,15,89,23,45,89,16,89,        91P     59
24,43,89,3,89,7;                                                      91P     60
128,1,1,1,1,0,0,1,0,0,-2.870019929724D1,-2.870019929724D1,            93P     61
2.870019929724D1,2.870019929724D1,-1.220019929724D1,                  93P     62
-1.220019929724D1,1.420019929724D1,1.420019929724D1,1D0,1D0,1D0,      93P     63
1D0,-1.220019929724D1,-3D3,-2.870019929724D1,-1.220019929724D1,       93P     64
-3D3,2.870019929724D1,1.420019929724D1,-3D3,-2.870019929724D1,        93P     65
1.420019929724D1,-3D3,2.870019929724D1,-2.870019929724D1,             93P     66
2.870019929724D1,-1.220019929724D1,1.420019929724D1;                  93P     67
508,12,0,91,5,1,0,0,91,6,1,0,0,91,7,1,0,0,91,8,1,0,0,91,9,1,0,0,      95P     68
91,1,1,0,0,91,10,1,0,0,91,11,1,0,0,91,12,1,0,0,91,13,1,0,0,91,        95P     69
14,1,0,0,91,2,1,0;                                                    95P     70
510,93,1,0,95;                                                        97P     71
128,1,1,1,1,0,0,1,0,0,-1.2D-1,-1.2D-1,6.12D0,6.12D0,-1.2D2,           99P     72
-1.2D2,6.12D3,6.12D3,1D0,1D0,1D0,1D0,-5D0,-3.12D3,-2.162D1,-5D0,      99P     73
-3.12D3,-1.538D1,-5D0,3.12D3,-2.162D1,-5D0,3.12D3,-1.538D1,           99P     74
-1.2D-1,6.12D0,-1.2D2,6.12D3;                                         99P     75
508,4,0,91,5,0,0,0,91,25,1,0,0,91,15,1,0,0,91,26,0,0;                101P     76
510,99,1,0,101;                                                      103P     77
128,1,1,1,1,0,0,1,0,0,-1.8D-1,-1.8D-1,9.18D0,9.18D0,-1.2D2,          105P     78
-1.2D2,6.12D3,6.12D3,1D0,1D0,1D0,1D0,4.18D0,-3.12D3,-2.15D1,         105P     79
-5.18D0,-3.12D3,-2.15D1,4.18D0,3.12D3,-2.15D1,-5.18D0,3.12D3,        105P     80
-2.15D1,-1.8D-1,9.18D0,-1.2D2,6.12D3;                                105P     81
508,4,0,91,2,0,0,0,91,36,1,0,0,91,4,1,0,0,91,25,0,0;                 107P     82
510,105,1,0,107;                                                     109P     83
128,1,1,1,1,0,0,1,0,0,-7.200199297242D0,-7.200199297242D0,           111P     84
2.720019929724D1,2.720019929724D1,-1.2D2,-1.2D2,6.12D3,6.12D3,       111P     85
1D0,1D0,1D0,1D0,4D0,-3.12D3,5.700199297242D0,4D0,-3.12D3,            111P     86
-2.870019929724D1,4D0,3.12D3,5.700199297242D0,4D0,3.12D3,            111P     87
-2.870019929724D1,-7.200199297242D0,2.720019929724D1,-1.2D2,         111P     88
6.12D3;                                                              111P     89
508,4,0,91,14,0,0,0,91,35,1,0,0,91,24,1,0,0,91,36,0,0;               113P     90
510,111,1,0,113;                                                     115P     91
128,1,1,1,1,0,0,1,0,0,-6D-2,-6D-2,3.06D0,3.06D0,-1.2D2,-1.2D2,       117P     92
6.12D3,6.12D3,1D0,1D0,1D0,1D0,7.06D0,-3.12D3,-1.5D0,3.94D0,          117P     93
-3.12D3,-1.5D0,7.06D0,3.12D3,-1.5D0,3.94D0,3.12D3,-1.5D0,-6D-2,      117P     94
3.06D0,-1.2D2,6.12D3;                                                117P     95
508,4,0,91,13,0,0,0,91,34,1,0,0,91,23,1,0,0,91,35,0,0;               119P     96
510,117,1,0,119;                                                     121P     97
128,1,1,1,1,0,0,1,0,0,-6D-2,-6D-2,3.06D0,3.06D0,-1.2D2,-1.2D2,       123P     98
6.12D3,6.12D3,1D0,1D0,1D0,1D0,7D0,-3.12D3,1.56D0,7D0,-3.12D3,        123P     99
-1.56D0,7D0,3.12D3,1.56D0,7D0,3.12D3,-1.56D0,-6D-2,3.06D0,           123P    100
-1.2D2,6.12D3;                                                       123P    101
508,4,0,91,12,0,0,0,91,33,1,0,0,91,22,1,0,0,91,34,0,0;               125P    102
510,123,1,0,125;                                                     127P    103
128,1,1,1,1,0,0,1,0,0,-6D-2,-6D-2,3.06D0,3.06D0,-1.2D2,-1.2D2,       129P    104
6.12D3,6.12D3,1D0,1D0,1D0,1D0,3.94D0,-3.12D3,1.5D0,7.06D0,           129P    105
-3.12D3,1.5D0,3.94D0,3.12D3,1.5D0,7.06D0,3.12D3,1.5D0,-6D-2,         129P    106
3.06D0,-1.2D2,6.12D3;                                                129P    107
508,4,0,91,11,0,0,0,91,32,1,0,0,91,21,1,0,0,91,33,0,0;               131P    108
510,129,1,0,131;                                                     133P    109
128,1,1,1,1,0,0,1,0,0,-7.200199297242D0,-7.200199297242D0,           135P    110
2.720019929724D1,2.720019929724D1,-1.2D2,-1.2D2,6.12D3,6.12D3,       135P    111
1D0,1D0,1D0,1D0,4D0,-3.12D3,2.870019929724D1,4D0,-3.12D3,            135P    112
-5.700199297242D0,4D0,3.12D3,2.870019929724D1,4D0,3.12D3,            135P    113
-5.700199297242D0,-7.200199297242D0,2.720019929724D1,-1.2D2,         135P    114
6.12D3;                                                              135P    115
508,4,0,91,10,0,0,0,91,31,1,0,0,91,20,1,0,0,91,32,0,0;               137P    116
510,135,1,0,137;                                                     139P    117
128,1,1,1,1,0,0,1,0,0,-1.8D-1,-1.8D-1,9.18D0,9.18D0,-1.2D2,          141P    118
-1.2D2,6.12D3,6.12D3,1D0,1D0,1D0,1D0,-5.18D0,-3.12D3,2.15D1,         141P    119
4.18D0,-3.12D3,2.15D1,-5.18D0,3.12D3,2.15D1,4.18D0,3.12D3,           141P    120
2.15D1,-1.8D-1,9.18D0,-1.2D2,6.12D3;                                 141P    121
508,4,0,91,1,0,0,0,91,30,1,0,0,91,3,1,0,0,91,31,0,0;                 143P    122
510,141,1,0,143;                                                     145P    123
128,1,1,1,1,0,0,1,0,0,-1.2D-1,-1.2D-1,6.12D0,6.12D0,-1.2D2,          147P    124
-1.2D2,6.12D3,6.12D3,1D0,1D0,1D0,1D0,-5D0,-3.12D3,1.538D1,-5D0,      147P    125
-3.12D3,2.162D1,-5D0,3.12D3,1.538D1,-5D0,3.12D3,2.162D1,-1.2D-1,     147P    126
6.12D0,-1.2D2,6.12D3;                                                147P    127
508,4,0,91,9,0,0,0,91,29,1,0,0,91,19,1,0,0,91,30,0,0;                149P    128
510,147,1,0,149;                                                     151P    129
128,1,1,1,1,0,0,1,0,0,-1D-1,-1D-1,5.1D0,5.1D0,-1.2D2,-1.2D2,         153P    130
6.12D3,6.12D3,1D0,1D0,1D0,1D0,1D-1,-3.12D3,1.55D1,-5.1D0,            153P    131
-3.12D3,1.55D1,1D-1,3.12D3,1.55D1,-5.1D0,3.12D3,1.55D1,-1D-1,        153P    132
5.1D0,-1.2D2,6.12D3;                                                 153P    133
508,4,0,91,8,0,0,0,91,28,1,0,0,91,18,1,0,0,91,29,0,0;                155P    134
510,153,1,0,155;                                                     157P    135
128,1,1,1,1,0,0,1,0,0,-7.200199297242D0,-7.200199297242D0,           159P    136
3.820019929724D1,3.820019929724D1,-1.2D2,-1.2D2,6.12D3,6.12D3,       159P    137
1D0,1D0,1D0,1D0,0D0,-3.12D3,-2.270019929724D1,0D0,-3.12D3,           159P    138
2.270019929724D1,0D0,3.12D3,-2.270019929724D1,0D0,3.12D3,            159P    139
2.270019929724D1,-7.200199297242D0,3.820019929724D1,-1.2D2,          159P    140
6.12D3;                                                              159P    141
508,4,0,91,7,0,0,0,91,27,1,0,0,91,17,1,0,0,91,28,0,0;                161P    142
510,159,1,0,161;                                                     163P    143
128,1,1,1,1,0,0,1,0,0,-1D-1,-1D-1,5.1D0,5.1D0,-1.2D2,-1.2D2,         165P    144
6.12D3,6.12D3,1D0,1D0,1D0,1D0,-5.1D0,-3.12D3,-1.55D1,1D-1,           165P    145
-3.12D3,-1.55D1,-5.1D0,3.12D3,-1.55D1,1D-1,3.12D3,-1.55D1,-1D-1,     165P    146
5.1D0,-1.2D2,6.12D3;                                                 165P    147
508,4,0,91,6,0,0,0,91,26,1,0,0,91,16,1,0,0,91,27,0,0;                167P    148
510,165,1,0,167;                                                     169P    149
128,1,1,1,1,0,0,1,0,0,-2.870019929724D1,-2.870019929724D1,           171P    150
2.870019929724D1,2.870019929724D1,-1.220019929724D1,                 171P    151
-1.220019929724D1,1.420019929724D1,1.420019929724D1,1D0,1D0,1D0,     171P    152
1D0,-1.220019929724D1,3D3,-2.870019929724D1,-1.220019929724D1,       171P    153
3D3,2.870019929724D1,1.420019929724D1,3D3,-2.870019929724D1,         171P    154
1.420019929724D1,3D3,2.870019929724D1,-2.870019929724D1,             171P    155
2.870019929724D1,-1.220019929724D1,1.420019929724D1;                 171P    156
508,12,0,91,15,0,0,0,91,4,0,0,0,91,24,0,0,0,91,23,0,0,0,91,22,0,     173P    157
0,0,91,21,0,0,0,91,20,0,0,0,91,3,0,0,0,91,19,0,0,0,91,18,0,0,0,      173P    158
91,17,0,0,0,91,16,0,0;                                               173P    159
510,171,1,0,173;                                                     175P    160
514,14,97,0,103,1,109,1,115,1,121,1,127,1,133,1,139,1,145,1,151,     177P    161
1,157,1,163,1,169,1,175,1;                                           177P    162
186,177,1,0;                                                         179P    163
S      1G      4D    180P    163                                        T      1
