                                                                        S      1
,,13H362-67435.ipt,27HNo Iges File Name specified,21HAutoDesk Inventor RG      1
10,35HAutoDesk Inventor Iges Exporter R10,32,38,6,99,15,13H362-67435.iptG      2
,1.0D0,2,2HMM,1,.08D0,15H20060412.121916,.01D0,10000.0D0,19HNo Author spG      3
ecified,25HNo Organization specified,11,0,,33HNo Application Protocol spG      4
ecified;                                                                G      5
     116       1       0       0       0       0       0       000010000D      1
     116       0       0       1       0                               0D      2
     123       2       0       0       0       0       0       000010200D      3
     123       0       0       1       0                               0D      4
     190       3       0       0       0       0       0       000010000D      5
     190       0       0       1       1                               0D      6
     123       4       0       0       0       0       0       000010200D      7
     123       0       0       1       0                               0D      8
     502       5       0       0       0       0       0       000010000D      9
     502       0       0       6       1                               0D     10
     110      11       0       0       0       0       0       000010000D     11
     110       0       0       1       0                               0D     12
     504      12       0       0       0       0       0       000010001D     13
     504       0       0       5       1                               0D     14
     110      17       0       0       0       0       0       000010000D     15
     110       0       0       1       0                               0D     16
     110      18       0       0       0       0       0       000010000D     17
     110       0       0       1       0                               0D     18
     110      19       0       0       0       0       0       000010000D     19
     110       0       0       1       0                               0D     20
     508      20       0       0       0       0       0       000010000D     21
     508       0       0       1       1                               0D     22
     510      21       0       0       0       0       0       000010001D     23
     510       0       0       1       1                               0D     24
     116      22       0       0       0       0       0       000010000D     25
     116       0       0       1       0                               0D     26
     123      23       0       0       0       0       0       000010200D     27
     123       0       0       1       0                               0D     28
     190      24       0       0       0       0       0       000010000D     29
     190       0       0       1       1                               0D     30
     123      25       0       0       0       0       0       000010200D     31
     123       0       0       1       0                               0D     32
     110      26       0       0       0       0       0       000010000D     33
     110       0       0       1       0                               0D     34
     110      27       0       0       0       0       0       000010000D     35
     110       0       0       1       0                               0D     36
     110      28       0       0       0       0       0       000010000D     37
     110       0       0       1       0                               0D     38
     508      29       0       0       0       0       0       000010000D     39
     508       0       0       1       1                               0D     40
     510      30       0       0       0       0       0       000010001D     41
     510       0       0       1       1                               0D     42
     116      31       0       0       0       0       0       000010000D     43
     116       0       0       1       0                               0D     44
     123      32       0       0       0       0       0       000010200D     45
     123       0       0       1       0                               0D     46
     190      33       0       0       0       0       0       000010000D     47
     190       0       0       1       1                               0D     48
     123      34       0       0       0       0       0       000010200D     49
     123       0       0       1       0                               0D     50
     110      35       0       0       0       0       0       000010000D     51
     110       0       0       1       0                               0D     52
     110      36       0       0       0       0       0       000010000D     53
     110       0       0       1       0                               0D     54
     110      37       0       0       0       0       0       000010000D     55
     110       0       0       1       0                               0D     56
     508      38       0       0       0       0       0       000010000D     57
     508       0       0       1       1                               0D     58
     510      39       0       0       0       0       0       000010001D     59
     510       0       0       1       1                               0D     60
     116      40       0       0       0       0       0       000010000D     61
     116       0       0       1       0                               0D     62
     123      41       0       0       0       0       0       000010200D     63
     123       0       0       1       0                               0D     64
     190      42       0       0       0       0       0       000010000D     65
     190       0       0       1       1                               0D     66
     123      43       0       0       0       0       0       000010200D     67
     123       0       0       1       0                               0D     68
     110      44       0       0       0       0       0       000010000D     69
     110       0       0       1       0                               0D     70
     110      45       0       0       0       0       0       000010000D     71
     110       0       0       1       0                               0D     72
     110      46       0       0       0       0       0       000010000D     73
     110       0       0       1       0                               0D     74
     508      47       0       0       0       0       0       000010000D     75
     508       0       0       1       1                               0D     76
     510      48       0       0       0       0       0       000010001D     77
     510       0       0       1       1                               0D     78
     116      49       0       0       0       0       0       000010000D     79
     116       0       0       1       0                               0D     80
     123      50       0       0       0       0       0       000010200D     81
     123       0       0       1       0                               0D     82
     190      51       0       0       0       0       0       000010000D     83
     190       0       0       1       1                               0D     84
     123      52       0       0       0       0       0       000010200D     85
     123       0       0       1       0                               0D     86
     110      53       0       0       0       0       0       000010000D     87
     110       0       0       1       0                               0D     88
     110      54       0       0       0       0       0       000010000D     89
     110       0       0       1       0                               0D     90
     110      55       0       0       0       0       0       000010000D     91
     110       0       0       1       0                               0D     92
     508      56       0       0       0       0       0       000010000D     93
     508       0       0       1       1                               0D     94
     510      57       0       0       0       0       0       000010001D     95
     510       0       0       1       1                               0D     96
     116      58       0       0       0       0       0       000010000D     97
     116       0       0       1       0                               0D     98
     123      59       0       0       0       0       0       000010200D     99
     123       0       0       1       0                               0D    100
     190      60       0       0       0       0       0       000010000D    101
     190       0       0       1       1                               0D    102
     123      61       0       0       0       0       0       000010200D    103
     123       0       0       1       0                               0D    104
     110      62       0       0       0       0       0       000010000D    105
     110       0       0       1       0                               0D    106
     110      63       0       0       0       0       0       000010000D    107
     110       0       0       1       0                               0D    108
     110      64       0       0       0       0       0       000010000D    109
     110       0       0       1       0                               0D    110
     508      65       0       0       0       0       0       000010000D    111
     508       0       0       1       1                               0D    112
     510      66       0       0       0       0       0       000010001D    113
     510       0       0       1       1                               0D    114
     116      67       0       0       0       0       0       000010000D    115
     116       0       0       1       0                               0D    116
     123      68       0       0       0       0       0       000010200D    117
     123       0       0       1       0                               0D    118
     190      69       0       0       0       0       0       000010000D    119
     190       0       0       1       1                               0D    120
     123      70       0       0       0       0       0       000010200D    121
     123       0       0       1       0                               0D    122
     110      71       0       0       0       0       0       000010000D    123
     110       0       0       1       0                               0D    124
     110      72       0       0       0       0       0       000010000D    125
     110       0       0       1       0                               0D    126
     110      73       0       0       0       0       0       000010000D    127
     110       0       0       1       0                               0D    128
     508      74       0       0       0       0       0       000010000D    129
     508       0       0       1       1                               0D    130
     510      75       0       0       0       0       0       000010001D    131
     510       0       0       1       1                               0D    132
     116      76       0       0       0       0       0       000010000D    133
     116       0       0       1       0                               0D    134
     123      77       0       0       0       0       0       000010200D    135
     123       0       0       1       0                               0D    136
     190      78       0       0       0       0       0       000010000D    137
     190       0       0       1       1                               0D    138
     123      79       0       0       0       0       0       000010200D    139
     123       0       0       1       0                               0D    140
     110      80       0       0       0       0       0       000010000D    141
     110       0       0       1       0                               0D    142
     110      81       0       0       0       0       0       000010000D    143
     110       0       0       1       0                               0D    144
     508      82       0       0       0       0       0       000010000D    145
     508       0       0       1       1                               0D    146
     510      83       0       0       0       0       0       000010001D    147
     510       0       0       1       1                               0D    148
     116      84       0       0       0       0       0       000010000D    149
     116       0       0       1       0                               0D    150
     123      85       0       0       0       0       0       000010200D    151
     123       0       0       1       0                               0D    152
     190      86       0       0       0       0       0       000010000D    153
     190       0       0       1       1                               0D    154
     123      87       0       0       0       0       0       000010200D    155
     123       0       0       1       0                               0D    156
     508      88       0       0       0       0       0       000010000D    157
     508       0       0       2       1                               0D    158
     510      90       0       0       0       0       0       000010001D    159
     510       0       0       1       1                               0D    160
     116      91       0       0       0       0       0       000010000D    161
     116       0       0       1       0                               0D    162
     123      92       0       0       0       0       0       000010200D    163
     123       0       0       1       0                               0D    164
     190      93       0       0       0       0       0       000010000D    165
     190       0       0       1       1                               0D    166
     123      94       0       0       0       0       0       000010200D    167
     123       0       0       1       0                               0D    168
     508      95       0       0       0       0       0       000010000D    169
     508       0       0       2       1                               0D    170
     510      97       0       0       0       0       0       000010001D    171
     510       0       0       1       1                               0D    172
     514      98       0       0       0       0       0       000010000D    173
     514       0       0       1       1                               0D    174
     186      99       0       0       1       0       0       000000000D    175
     186       0    -177       1       0                               0D    176
     314     100       0       0       0       0       0       000000200D    177
     314       0       0       2       0                               0D    178
116,15.75D0,-5.0D0,0.0D0,0;                                            1P      1
123,-1.0D0,0.0D0,0.0D0;                                                3P      2
190,1,3,7;                                                             5P      3
123,0.0D0,0.0D0,1.0D0;                                                 7P      4
502,16,15.75D0,-5.0D0,50.0D0,15.75D0,0.0D0,50.0D0,15.75D0,0.0D0,       9P      5
0.0D0,15.75D0,-5.0D0,0.0D0,-15.25D0,0.0D0,50.0D0,-15.25D0,0.0D0,       9P      6
0.0D0,-15.25D0,-5.0D0,50.0D0,-15.25D0,-5.0D0,0.0D0,-20.25D0,           9P      7
-5.0D0,50.0D0,-20.25D0,-5.0D0,0.0D0,-20.25D0,4.0D0,50.0D0,             9P      8
-20.25D0,4.0D0,0.0D0,20.75D0,4.0D0,50.0D0,20.75D0,4.0D0,0.0D0,         9P      9
20.75D0,-5.0D0,50.0D0,20.75D0,-5.0D0,0.0D0;                            9P     10
110,15.75D0,-5.0D0,50.0D0,15.75D0,0.0D0,50.0D0;                       11P     11
504,24,11,9,1,9,2,15,9,3,9,2,17,9,3,9,4,19,9,4,9,1,33,9,2,9,5,        13P     12
35,9,6,9,5,37,9,6,9,3,51,9,5,9,7,53,9,8,9,7,55,9,8,9,6,69,9,7,9,      13P     13
9,71,9,10,9,9,73,9,10,9,8,87,9,9,9,11,89,9,12,9,11,91,9,12,9,10,      13P     14
105,9,11,9,13,107,9,14,9,13,109,9,14,9,12,123,9,13,9,15,125,9,        13P     15
16,9,15,127,9,16,9,14,141,9,15,9,1,143,9,4,9,16;                      13P     16
110,15.75D0,0.0D0,0.0D0,15.75D0,0.0D0,50.0D0;                         15P     17
110,15.75D0,0.0D0,0.0D0,15.75D0,-5.0D0,0.0D0;                         17P     18
110,15.75D0,-5.0D0,0.0D0,15.75D0,-5.0D0,50.0D0;                       19P     19
508,4,0,13,1,1,0,0,13,2,0,0,0,13,3,1,0,0,13,4,1,0;                    21P     20
510,5,1,1,21;                                                         23P     21
116,15.75D0,0.0D0,0.0D0,0;                                            25P     22
123,0.0D0,-1.0D0,0.0D0;                                               27P     23
190,25,27,31;                                                         29P     24
123,0.0D0,0.0D0,-1.0D0;                                               31P     25
110,15.75D0,0.0D0,50.0D0,-15.25D0,0.0D0,50.0D0;                       33P     26
110,-15.25D0,0.0D0,0.0D0,-15.25D0,0.0D0,50.0D0;                       35P     27
110,-15.25D0,0.0D0,0.0D0,15.75D0,0.0D0,0.0D0;                         37P     28
508,4,0,13,5,1,0,0,13,6,0,0,0,13,7,1,0,0,13,2,1,0;                    39P     29
510,29,1,1,39;                                                        41P     30
116,-15.25D0,0.0D0,0.0D0,0;                                           43P     31
123,1.0D0,0.0D0,0.0D0;                                                45P     32
190,43,45,49;                                                         47P     33
123,0.0D0,0.0D0,-1.0D0;                                               49P     34
110,-15.25D0,0.0D0,50.0D0,-15.25D0,-5.0D0,50.0D0;                     51P     35
110,-15.25D0,-5.0D0,0.0D0,-15.25D0,-5.0D0,50.0D0;                     53P     36
110,-15.25D0,-5.0D0,0.0D0,-15.25D0,0.0D0,0.0D0;                       55P     37
508,4,0,13,8,1,0,0,13,9,0,0,0,13,10,1,0,0,13,6,1,0;                   57P     38
510,47,1,1,57;                                                        59P     39
116,-15.25D0,-5.0D0,0.0D0,0;                                          61P     40
123,0.0D0,-1.0D0,0.0D0;                                               63P     41
190,61,63,67;                                                         65P     42
123,0.0D0,0.0D0,-1.0D0;                                               67P     43
110,-15.25D0,-5.0D0,50.0D0,-20.25D0,-5.0D0,50.0D0;                    69P     44
110,-20.25D0,-5.0D0,0.0D0,-20.25D0,-5.0D0,50.0D0;                     71P     45
110,-20.25D0,-5.0D0,0.0D0,-15.25D0,-5.0D0,0.0D0;                      73P     46
508,4,0,13,11,1,0,0,13,12,0,0,0,13,13,1,0,0,13,9,1,0;                 75P     47
510,65,1,1,75;                                                        77P     48
116,-20.25D0,-5.0D0,0.0D0,0;                                          79P     49
123,-1.0D0,0.0D0,0.0D0;                                               81P     50
190,79,81,85;                                                         83P     51
123,0.0D0,0.0D0,1.0D0;                                                85P     52
110,-20.25D0,-5.0D0,50.0D0,-20.25D0,4.0D0,50.0D0;                     87P     53
110,-20.25D0,4.0D0,0.0D0,-20.25D0,4.0D0,50.0D0;                       89P     54
110,-20.25D0,4.0D0,0.0D0,-20.25D0,-5.0D0,0.0D0;                       91P     55
508,4,0,13,14,1,0,0,13,15,0,0,0,13,16,1,0,0,13,12,1,0;                93P     56
510,83,1,1,93;                                                        95P     57
116,-20.25D0,4.0D0,0.0D0,0;                                           97P     58
123,0.0D0,1.0D0,0.0D0;                                                99P     59
190,97,99,103;                                                       101P     60
123,0.0D0,0.0D0,1.0D0;                                               103P     61
110,-20.25D0,4.0D0,50.0D0,20.75D0,4.0D0,50.0D0;                      105P     62
110,20.75D0,4.0D0,0.0D0,20.75D0,4.0D0,50.0D0;                        107P     63
110,20.75D0,4.0D0,0.0D0,-20.25D0,4.0D0,0.0D0;                        109P     64
508,4,0,13,17,1,0,0,13,18,0,0,0,13,19,1,0,0,13,15,1,0;               111P     65
510,101,1,1,111;                                                     113P     66
116,20.75D0,4.0D0,0.0D0,0;                                           115P     67
123,1.0D0,0.0D0,0.0D0;                                               117P     68
190,115,117,121;                                                     119P     69
123,0.0D0,0.0D0,-1.0D0;                                              121P     70
110,20.75D0,4.0D0,50.0D0,20.75D0,-5.0D0,50.0D0;                      123P     71
110,20.75D0,-5.0D0,0.0D0,20.75D0,-5.0D0,50.0D0;                      125P     72
110,20.75D0,-5.0D0,0.0D0,20.75D0,4.0D0,0.0D0;                        127P     73
508,4,0,13,20,1,0,0,13,21,0,0,0,13,22,1,0,0,13,18,1,0;               129P     74
510,119,1,1,129;                                                     131P     75
116,20.75D0,-5.0D0,0.0D0,0;                                          133P     76
123,0.0D0,-1.0D0,0.0D0;                                              135P     77
190,133,135,139;                                                     137P     78
123,0.0D0,0.0D0,-1.0D0;                                              139P     79
110,20.75D0,-5.0D0,50.0D0,15.75D0,-5.0D0,50.0D0;                     141P     80
110,15.75D0,-5.0D0,0.0D0,20.75D0,-5.0D0,0.0D0;                       143P     81
508,4,0,13,23,1,0,0,13,4,0,0,0,13,24,1,0,0,13,21,1,0;                145P     82
510,137,1,1,145;                                                     147P     83
116,.25D0,.727272727272727D0,0.0D0,0;                                149P     84
123,0.0D0,0.0D0,-1.0D0;                                              151P     85
190,149,151,155;                                                     153P     86
123,-1.0D0,0.0D0,0.0D0;                                              155P     87
508,8,0,13,24,0,0,0,13,3,0,0,0,13,7,0,0,0,13,10,0,0,0,13,13,0,0,     157P     88
0,13,16,0,0,0,13,19,0,0,0,13,22,0,0;                                 157P     89
510,153,1,1,157;                                                     159P     90
116,.25D0,.727272727272727D0,50.0D0,0;                               161P     91
123,0.0D0,0.0D0,1.0D0;                                               163P     92
190,161,163,167;                                                     165P     93
123,1.0D0,0.0D0,0.0D0;                                               167P     94
508,8,0,13,1,0,0,0,13,23,0,0,0,13,20,0,0,0,13,17,0,0,0,13,14,0,      169P     95
0,0,13,11,0,0,0,13,8,0,0,0,13,5,0,0;                                 169P     96
510,165,1,1,169;                                                     171P     97
514,10,23,1,41,1,59,1,77,1,95,1,113,1,131,1,147,1,159,1,171,1;       173P     98
186,173,1,0;                                                         175P     99
314,17.6470994949341D0,81.5685987472534D0,49.4118005037308D0,        177P    100
10HVerde mare;                                                       177P    101
S      1G      5D    178P    101                                        T      1
